  0
SECTION
  2
BLOCKS
  0
ENDSEC
  0
SECTION
  2
ENTITIES
  0
LINE
  8
0
 10
-48
 11
-48
 20
-2.575
 21
3.275
  0
LINE
  8
0
 10
-48
 11
-29
 20
3.275
 21
3.275
  0
LINE
  8
0
 10
-29
 11
-29
 20
3.275
 21
10.7
  0
LINE
  8
0
 10
-29
 11
-28.974
 20
10.7
 21
11.187
  0
LINE
  8
0
 10
-28.974
 11
-28.895
 20
11.187
 21
11.667
  0
LINE
  8
0
 10
-28.895
 11
-28.764
 20
11.667
 21
12.137
  0
LINE
  8
0
 10
-28.764
 11
-28.584
 20
12.137
 21
12.589
  0
LINE
  8
0
 10
-28.584
 11
-28.356
 20
12.589
 21
13.02
  0
LINE
  8
0
 10
-28.356
 11
-28.082
 20
13.02
 21
13.423
  0
LINE
  8
0
 10
-28.082
 11
-27.767
 20
13.423
 21
13.795
  0
LINE
  8
0
 10
-27.767
 11
-27.413
 20
13.795
 21
14.13
  0
LINE
  8
0
 10
-27.413
 11
-27.025
 20
14.13
 21
14.425
  0
LINE
  8
0
 10
-27.025
 11
-26.608
 20
14.425
 21
14.676
  0
LINE
  8
0
 10
-26.608
 11
-26.166
 20
14.676
 21
14.88
  0
LINE
  8
0
 10
-26.166
 11
-25.704
 20
14.88
 21
15.036
  0
LINE
  8
0
 10
-25.704
 11
-25.228
 20
15.036
 21
15.141
  0
LINE
  8
0
 10
-25.228
 11
-24.744
 20
15.141
 21
15.193
  0
LINE
  8
0
 10
-24.744
 11
-24.256
 20
15.193
 21
15.193
  0
LINE
  8
0
 10
-24.256
 11
-23.772
 20
15.193
 21
15.141
  0
LINE
  8
0
 10
-23.772
 11
-23.296
 20
15.141
 21
15.036
  0
LINE
  8
0
 10
-23.296
 11
-22.834
 20
15.036
 21
14.88
  0
LINE
  8
0
 10
-22.834
 11
-22.392
 20
14.88
 21
14.676
  0
LINE
  8
0
 10
-22.392
 11
-21.975
 20
14.676
 21
14.425
  0
LINE
  8
0
 10
-21.975
 11
-21.587
 20
14.425
 21
14.13
  0
LINE
  8
0
 10
-21.587
 11
-21.233
 20
14.13
 21
13.795
  0
LINE
  8
0
 10
-21.233
 11
-20.918
 20
13.795
 21
13.423
  0
LINE
  8
0
 10
-20.918
 11
-20.644
 20
13.423
 21
13.02
  0
LINE
  8
0
 10
-20.644
 11
-20.416
 20
13.02
 21
12.589
  0
LINE
  8
0
 10
-20.416
 11
-20.236
 20
12.589
 21
12.137
  0
LINE
  8
0
 10
-20.236
 11
-20.105
 20
12.137
 21
11.667
  0
LINE
  8
0
 10
-20.105
 11
-20.026
 20
11.667
 21
11.187
  0
LINE
  8
0
 10
-20.026
 11
-20
 20
11.187
 21
10.7
  0
LINE
  8
0
 10
-20
 11
-20
 20
10.7
 21
-10
  0
LINE
  8
0
 10
-20
 11
-20.026
 20
-10
 21
-10.487
  0
LINE
  8
0
 10
-20.026
 11
-20.105
 20
-10.487
 21
-10.967
  0
LINE
  8
0
 10
-20.105
 11
-20.236
 20
-10.967
 21
-11.437
  0
LINE
  8
0
 10
-20.236
 11
-20.416
 20
-11.437
 21
-11.89
  0
LINE
  8
0
 10
-20.416
 11
-20.644
 20
-11.89
 21
-12.32
  0
LINE
  8
0
 10
-20.644
 11
-20.918
 20
-12.32
 21
-12.723
  0
LINE
  8
0
 10
-20.918
 11
-21.233
 20
-12.723
 21
-13.095
  0
LINE
  8
0
 10
-21.233
 11
-21.587
 20
-13.095
 21
-13.43
  0
LINE
  8
0
 10
-21.587
 11
-21.975
 20
-13.43
 21
-13.725
  0
LINE
  8
0
 10
-21.975
 11
-22.392
 20
-13.725
 21
-13.976
  0
LINE
  8
0
 10
-22.392
 11
-22.834
 20
-13.976
 21
-14.18
  0
LINE
  8
0
 10
-22.834
 11
-23.296
 20
-14.18
 21
-14.336
  0
LINE
  8
0
 10
-23.296
 11
-23.772
 20
-14.336
 21
-14.441
  0
LINE
  8
0
 10
-23.772
 11
-24.256
 20
-14.441
 21
-14.493
  0
LINE
  8
0
 10
-24.256
 11
-24.744
 20
-14.493
 21
-14.493
  0
LINE
  8
0
 10
-24.744
 11
-25.228
 20
-14.493
 21
-14.441
  0
LINE
  8
0
 10
-25.228
 11
-25.704
 20
-14.441
 21
-14.336
  0
LINE
  8
0
 10
-25.704
 11
-26.166
 20
-14.336
 21
-14.18
  0
LINE
  8
0
 10
-26.166
 11
-26.608
 20
-14.18
 21
-13.976
  0
LINE
  8
0
 10
-26.608
 11
-27.025
 20
-13.976
 21
-13.725
  0
LINE
  8
0
 10
-27.025
 11
-27.413
 20
-13.725
 21
-13.43
  0
LINE
  8
0
 10
-27.413
 11
-27.767
 20
-13.43
 21
-13.095
  0
LINE
  8
0
 10
-27.767
 11
-28.082
 20
-13.095
 21
-12.723
  0
LINE
  8
0
 10
-28.082
 11
-28.356
 20
-12.723
 21
-12.32
  0
LINE
  8
0
 10
-28.356
 11
-28.584
 20
-12.32
 21
-11.89
  0
LINE
  8
0
 10
-28.584
 11
-28.764
 20
-11.89
 21
-11.437
  0
LINE
  8
0
 10
-28.764
 11
-28.895
 20
-11.437
 21
-10.967
  0
LINE
  8
0
 10
-28.895
 11
-28.974
 20
-10.967
 21
-10.487
  0
LINE
  8
0
 10
-28.974
 11
-29
 20
-10.487
 21
-10
  0
LINE
  8
0
 10
-29
 11
-29
 20
-10
 21
-2.575
  0
LINE
  8
0
 10
-29
 11
-48
 20
-2.575
 21
-2.575
  0
LINE
  8
0
 10
-43.918
 11
-43.857
 20
-18.933
 21
-18.437
  0
LINE
  8
0
 10
-43.857
 11
-43.726
 20
-18.437
 21
-17.955
  0
LINE
  8
0
 10
-43.726
 11
-43.529
 20
-17.955
 21
-17.497
  0
LINE
  8
0
 10
-43.529
 11
-43.267
 20
-17.497
 21
-17.071
  0
LINE
  8
0
 10
-43.267
 11
-42.948
 20
-17.071
 21
-16.687
  0
LINE
  8
0
 10
-42.948
 11
-42.578
 20
-16.687
 21
-16.352
  0
LINE
  8
0
 10
-42.578
 11
-42.164
 20
-16.352
 21
-16.073
  0
LINE
  8
0
 10
-42.164
 11
-41.714
 20
-16.073
 21
-15.856
  0
LINE
  8
0
 10
-41.714
 11
-41.238
 20
-15.856
 21
-15.706
  0
LINE
  8
0
 10
-41.238
 11
-40.745
 20
-15.706
 21
-15.624
  0
LINE
  8
0
 10
-40.745
 11
-40.246
 20
-15.624
 21
-15.614
  0
LINE
  8
0
 10
-40.246
 11
-39.75
 20
-15.614
 21
-15.674
  0
LINE
  8
0
 10
-39.75
 11
-39.268
 20
-15.674
 21
-15.805
  0
LINE
  8
0
 10
-39.268
 11
-38.81
 20
-15.805
 21
-16.003
  0
LINE
  8
0
 10
-38.81
 11
-38.384
 20
-16.003
 21
-16.264
  0
LINE
  8
0
 10
-38.384
 11
-38
 20
-16.264
 21
-16.583
  0
LINE
  8
0
 10
-38
 11
-37.665
 20
-16.583
 21
-16.953
  0
LINE
  8
0
 10
-37.665
 11
-37.386
 20
-16.953
 21
-17.368
  0
LINE
  8
0
 10
-37.386
 11
-37.169
 20
-17.368
 21
-17.817
  0
LINE
  8
0
 10
-37.169
 11
-37.019
 20
-17.817
 21
-18.294
  0
LINE
  8
0
 10
-37.019
 11
-36.084
 20
-18.294
 21
-22.195
  0
LINE
  8
0
 10
-36.084
 11
-35.619
 20
-22.195
 21
-22.514
  0
LINE
  8
0
 10
-35.619
 11
-35.124
 20
-22.514
 21
-22.783
  0
LINE
  8
0
 10
-35.124
 11
-34.604
 20
-22.783
 21
-22.999
  0
LINE
  8
0
 10
-34.604
 11
-34.064
 20
-22.999
 21
-23.16
  0
LINE
  8
0
 10
-34.064
 11
-33.51
 20
-23.16
 21
-23.263
  0
LINE
  8
0
 10
-33.51
 11
-32.948
 20
-23.263
 21
-23.308
  0
LINE
  8
0
 10
-32.948
 11
10.097
 20
-23.308
 21
-24.501
  0
LINE
  8
0
 10
10.097
 11
10.594
 20
-24.501
 21
-24.551
  0
LINE
  8
0
 10
10.594
 11
11.079
 20
-24.551
 21
-24.67
  0
LINE
  8
0
 10
11.079
 11
11.542
 20
-24.67
 21
-24.858
  0
LINE
  8
0
 10
11.542
 11
11.973
 20
-24.858
 21
-25.109
  0
LINE
  8
0
 10
11.973
 11
12.364
 20
-25.109
 21
-25.419
  0
LINE
  8
0
 10
12.364
 11
12.708
 20
-25.419
 21
-25.782
  0
LINE
  8
0
 10
12.708
 11
12.996
 20
-25.782
 21
-26.19
  0
LINE
  8
0
 10
12.996
 11
13.223
 20
-26.19
 21
-26.635
  0
LINE
  8
0
 10
13.223
 11
13.384
 20
-26.635
 21
-27.107
  0
LINE
  8
0
 10
13.384
 11
13.477
 20
-27.107
 21
-27.598
  0
LINE
  8
0
 10
13.477
 11
13.499
 20
-27.598
 21
-28.097
  0
LINE
  8
0
 10
13.499
 11
13.449
 20
-28.097
 21
-28.594
  0
LINE
  8
0
 10
13.449
 11
13.33
 20
-28.594
 21
-29.079
  0
LINE
  8
0
 10
13.33
 11
13.142
 20
-29.079
 21
-29.542
  0
LINE
  8
0
 10
13.142
 11
12.891
 20
-29.542
 21
-29.973
  0
LINE
  8
0
 10
12.891
 11
12.581
 20
-29.973
 21
-30.364
  0
LINE
  8
0
 10
12.581
 11
12.218
 20
-30.364
 21
-30.708
  0
LINE
  8
0
 10
12.218
 11
11.81
 20
-30.708
 21
-30.996
  0
LINE
  8
0
 10
11.81
 11
11.365
 20
-30.996
 21
-31.223
  0
LINE
  8
0
 10
11.365
 11
10.893
 20
-31.223
 21
-31.384
  0
LINE
  8
0
 10
10.893
 11
10.402
 20
-31.384
 21
-31.477
  0
LINE
  8
0
 10
10.402
 11
9.903
 20
-31.477
 21
-31.499
  0
LINE
  8
0
 10
9.903
 11
-32.522
 20
-31.499
 21
-30.322
  0
LINE
  8
0
 10
-32.522
 11
-33.403
 20
-30.322
 21
-30.352
  0
LINE
  8
0
 10
-33.403
 11
-34.283
 20
-30.352
 21
-30.312
  0
LINE
  8
0
 10
-34.283
 11
-35.158
 20
-30.312
 21
-30.202
  0
LINE
  8
0
 10
-35.158
 11
-36.021
 20
-30.202
 21
-30.025
  0
LINE
  8
0
 10
-36.021
 11
-36.867
 20
-30.025
 21
-29.78
  0
LINE
  8
0
 10
-36.867
 11
-37.692
 20
-29.78
 21
-29.47
  0
LINE
  8
0
 10
-37.692
 11
-38.49
 20
-29.47
 21
-29.096
  0
LINE
  8
0
 10
-38.49
 11
-39.256
 20
-29.096
 21
-28.66
  0
LINE
  8
0
 10
-39.256
 11
-39.985
 20
-28.66
 21
-28.165
  0
LINE
  8
0
 10
-39.985
 11
-40.673
 20
-28.165
 21
-27.615
  0
LINE
  8
0
 10
-40.673
 11
-41.316
 20
-27.615
 21
-27.012
  0
LINE
  8
0
 10
-41.316
 11
-41.91
 20
-27.012
 21
-26.361
  0
LINE
  8
0
 10
-41.91
 11
-42.45
 20
-26.361
 21
-25.665
  0
LINE
  8
0
 10
-42.45
 11
-43.826
 20
-25.665
 21
-19.925
  0
LINE
  8
0
 10
-43.826
 11
-43.907
 20
-19.925
 21
-19.432
  0
LINE
  8
0
 10
-43.907
 11
-43.918
 20
-19.432
 21
-18.933
  0
LINE
  8
0
 10
-41.845
 11
-41.826
 20
-19.18
 21
-18.862
  0
LINE
  8
0
 10
-41.826
 11
-41.735
 20
-18.862
 21
-18.556
  0
LINE
  8
0
 10
-41.735
 11
-41.579
 20
-18.556
 21
-18.277
  0
LINE
  8
0
 10
-41.579
 11
-41.365
 20
-18.277
 21
-18.041
  0
LINE
  8
0
 10
-41.365
 11
-41.104
 20
-18.041
 21
-17.858
  0
LINE
  8
0
 10
-41.104
 11
-40.808
 20
-17.858
 21
-17.737
  0
LINE
  8
0
 10
-40.808
 11
-40.493
 20
-17.737
 21
-17.686
  0
LINE
  8
0
 10
-40.493
 11
-40.175
 20
-17.686
 21
-17.706
  0
LINE
  8
0
 10
-40.175
 11
-39.869
 20
-17.706
 21
-17.796
  0
LINE
  8
0
 10
-39.869
 11
-39.59
 20
-17.796
 21
-17.952
  0
LINE
  8
0
 10
-39.59
 11
-39.354
 20
-17.952
 21
-18.166
  0
LINE
  8
0
 10
-39.354
 11
-39.171
 20
-18.166
 21
-18.428
  0
LINE
  8
0
 10
-39.171
 11
-39.05
 20
-18.428
 21
-18.723
  0
LINE
  8
0
 10
-39.05
 11
-38.999
 20
-18.723
 21
-19.038
  0
LINE
  8
0
 10
-38.999
 11
-39.019
 20
-19.038
 21
-19.357
  0
LINE
  8
0
 10
-39.019
 11
-39.109
 20
-19.357
 21
-19.663
  0
LINE
  8
0
 10
-39.109
 11
-39.265
 20
-19.663
 21
-19.941
  0
LINE
  8
0
 10
-39.265
 11
-39.479
 20
-19.941
 21
-20.178
  0
LINE
  8
0
 10
-39.479
 11
-39.741
 20
-20.178
 21
-20.361
  0
LINE
  8
0
 10
-39.741
 11
-40.036
 20
-20.361
 21
-20.481
  0
LINE
  8
0
 10
-40.036
 11
-40.351
 20
-20.481
 21
-20.532
  0
LINE
  8
0
 10
-40.351
 11
-40.67
 20
-20.532
 21
-20.513
  0
LINE
  8
0
 10
-40.67
 11
-40.976
 20
-20.513
 21
-20.422
  0
LINE
  8
0
 10
-40.976
 11
-41.254
 20
-20.422
 21
-20.266
  0
LINE
  8
0
 10
-41.254
 11
-41.491
 20
-20.266
 21
-20.052
  0
LINE
  8
0
 10
-41.491
 11
-41.674
 20
-20.052
 21
-19.791
  0
LINE
  8
0
 10
-41.674
 11
-41.794
 20
-19.791
 21
-19.495
  0
LINE
  8
0
 10
-41.794
 11
-41.845
 20
-19.495
 21
-19.18
  0
LINE
  8
0
 10
-39.5
 11
-39.451
 20
35.5
 21
36.696
  0
LINE
  8
0
 10
-39.451
 11
-39.303
 20
36.696
 21
37.884
  0
LINE
  8
0
 10
-39.303
 11
-39.057
 20
37.884
 21
39.056
  0
LINE
  8
0
 10
-39.057
 11
-38.716
 20
39.056
 21
40.203
  0
LINE
  8
0
 10
-38.716
 11
-38.281
 20
40.203
 21
41.318
  0
LINE
  8
0
 10
-38.281
 11
-37.756
 20
41.318
 21
42.394
  0
LINE
  8
0
 10
-37.756
 11
-37.144
 20
42.394
 21
43.423
  0
LINE
  8
0
 10
-37.144
 11
-36.449
 20
43.423
 21
44.397
  0
LINE
  8
0
 10
-36.449
 11
-35.676
 20
44.397
 21
45.311
  0
LINE
  8
0
 10
-35.676
 11
-34.831
 20
45.311
 21
46.159
  0
LINE
  8
0
 10
-34.831
 11
-33.918
 20
46.159
 21
46.933
  0
LINE
  8
0
 10
-33.918
 11
-32.945
 20
46.933
 21
47.63
  0
LINE
  8
0
 10
-32.945
 11
-31.917
 20
47.63
 21
48.244
  0
LINE
  8
0
 10
-31.917
 11
-30.842
 20
48.244
 21
48.771
  0
LINE
  8
0
 10
-30.842
 11
-29.728
 20
48.771
 21
49.208
  0
LINE
  8
0
 10
-29.728
 11
-28.581
 20
49.208
 21
49.551
  0
LINE
  8
0
 10
-28.581
 11
-27.41
 20
49.551
 21
49.798
  0
LINE
  8
0
 10
-27.41
 11
-26.222
 20
49.798
 21
49.948
  0
LINE
  8
0
 10
-26.222
 11
-25.026
 20
49.948
 21
50
  0
LINE
  8
0
 10
-25.026
 11
-23.83
 20
50
 21
49.953
  0
LINE
  8
0
 10
-23.83
 11
25
 20
49.953
 21
46
  0
LINE
  8
0
 10
25
 11
26.029
 20
46
 21
45.949
  0
LINE
  8
0
 10
26.029
 11
27.048
 20
45.949
 21
45.798
  0
LINE
  8
0
 10
27.048
 11
28.048
 20
45.798
 21
45.548
  0
LINE
  8
0
 10
28.048
 11
29.018
 20
45.548
 21
45.201
  0
LINE
  8
0
 10
29.018
 11
29.95
 20
45.201
 21
44.76
  0
LINE
  8
0
 10
29.95
 11
30.833
 20
44.76
 21
44.23
  0
LINE
  8
0
 10
30.833
 11
31.661
 20
44.23
 21
43.617
  0
LINE
  8
0
 10
31.661
 11
32.425
 20
43.617
 21
42.925
  0
LINE
  8
0
 10
32.425
 11
33.117
 20
42.925
 21
42.161
  0
LINE
  8
0
 10
33.117
 11
33.73
 20
42.161
 21
41.333
  0
LINE
  8
0
 10
33.73
 11
34.26
 20
41.333
 21
40.45
  0
LINE
  8
0
 10
34.26
 11
34.701
 20
40.45
 21
39.518
  0
LINE
  8
0
 10
34.701
 11
35.048
 20
39.518
 21
38.548
  0
LINE
  8
0
 10
35.048
 11
35.298
 20
38.548
 21
37.548
  0
LINE
  8
0
 10
35.298
 11
35.449
 20
37.548
 21
36.529
  0
LINE
  8
0
 10
35.449
 11
35.5
 20
36.529
 21
35.5
  0
LINE
  8
0
 10
35.5
 11
35.449
 20
35.5
 21
34.471
  0
LINE
  8
0
 10
35.449
 11
35.298
 20
34.471
 21
33.452
  0
LINE
  8
0
 10
35.298
 11
35.048
 20
33.452
 21
32.452
  0
LINE
  8
0
 10
35.048
 11
34.701
 20
32.452
 21
31.482
  0
LINE
  8
0
 10
34.701
 11
34.26
 20
31.482
 21
30.55
  0
LINE
  8
0
 10
34.26
 11
33.73
 20
30.55
 21
29.667
  0
LINE
  8
0
 10
33.73
 11
33.117
 20
29.667
 21
28.839
  0
LINE
  8
0
 10
33.117
 11
32.425
 20
28.839
 21
28.075
  0
LINE
  8
0
 10
32.425
 11
31.661
 20
28.075
 21
27.383
  0
LINE
  8
0
 10
31.661
 11
30.833
 20
27.383
 21
26.77
  0
LINE
  8
0
 10
30.833
 11
29.95
 20
26.77
 21
26.24
  0
LINE
  8
0
 10
29.95
 11
29.018
 20
26.24
 21
25.799
  0
LINE
  8
0
 10
29.018
 11
28.048
 20
25.799
 21
25.452
  0
LINE
  8
0
 10
28.048
 11
27.048
 20
25.452
 21
25.202
  0
LINE
  8
0
 10
27.048
 11
26.029
 20
25.202
 21
25.051
  0
LINE
  8
0
 10
26.029
 11
25
 20
25.051
 21
25
  0
LINE
  8
0
 10
25
 11
-23.83
 20
25
 21
21.047
  0
LINE
  8
0
 10
-23.83
 11
-25.026
 20
21.047
 21
21
  0
LINE
  8
0
 10
-25.026
 11
-26.222
 20
21
 21
21.052
  0
LINE
  8
0
 10
-26.222
 11
-27.41
 20
21.052
 21
21.202
  0
LINE
  8
0
 10
-27.41
 11
-28.581
 20
21.202
 21
21.449
  0
LINE
  8
0
 10
-28.581
 11
-29.728
 20
21.449
 21
21.792
  0
LINE
  8
0
 10
-29.728
 11
-30.842
 20
21.792
 21
22.229
  0
LINE
  8
0
 10
-30.842
 11
-31.917
 20
22.229
 21
22.756
  0
LINE
  8
0
 10
-31.917
 11
-32.945
 20
22.756
 21
23.37
  0
LINE
  8
0
 10
-32.945
 11
-33.918
 20
23.37
 21
24.067
  0
LINE
  8
0
 10
-33.918
 11
-34.831
 20
24.067
 21
24.841
  0
LINE
  8
0
 10
-34.831
 11
-35.676
 20
24.841
 21
25.689
  0
LINE
  8
0
 10
-35.676
 11
-36.449
 20
25.689
 21
26.603
  0
LINE
  8
0
 10
-36.449
 11
-37.144
 20
26.603
 21
27.577
  0
LINE
  8
0
 10
-37.144
 11
-37.756
 20
27.577
 21
28.606
  0
LINE
  8
0
 10
-37.756
 11
-38.281
 20
28.606
 21
29.682
  0
LINE
  8
0
 10
-38.281
 11
-38.716
 20
29.682
 21
30.797
  0
LINE
  8
0
 10
-38.716
 11
-39.057
 20
30.797
 21
31.944
  0
LINE
  8
0
 10
-39.057
 11
-39.303
 20
31.944
 21
33.116
  0
LINE
  8
0
 10
-39.303
 11
-39.451
 20
33.116
 21
34.304
  0
LINE
  8
0
 10
-39.451
 11
-39.5
 20
34.304
 21
35.5
  0
LINE
  8
0
 10
-29.845
 11
-29.797
 20
44.897
 21
45.266
  0
LINE
  8
0
 10
-29.797
 11
-29.654
 20
45.266
 21
45.609
  0
LINE
  8
0
 10
-29.654
 11
-29.428
 20
45.609
 21
45.905
  0
LINE
  8
0
 10
-29.428
 11
-29.133
 20
45.905
 21
46.131
  0
LINE
  8
0
 10
-29.133
 11
-28.789
 20
46.131
 21
46.273
  0
LINE
  8
0
 10
-28.789
 11
-28.42
 20
46.273
 21
46.322
  0
LINE
  8
0
 10
-28.42
 11
-28.051
 20
46.322
 21
46.273
  0
LINE
  8
0
 10
-28.051
 11
-27.708
 20
46.273
 21
46.131
  0
LINE
  8
0
 10
-27.708
 11
-27.413
 20
46.131
 21
45.905
  0
LINE
  8
0
 10
-27.413
 11
-27.186
 20
45.905
 21
45.609
  0
LINE
  8
0
 10
-27.186
 11
-27.044
 20
45.609
 21
45.266
  0
LINE
  8
0
 10
-27.044
 11
-26.995
 20
45.266
 21
44.897
  0
LINE
  8
0
 10
-26.995
 11
-27.044
 20
44.897
 21
44.528
  0
LINE
  8
0
 10
-27.044
 11
-27.186
 20
44.528
 21
44.184
  0
LINE
  8
0
 10
-27.186
 11
-27.413
 20
44.184
 21
43.889
  0
LINE
  8
0
 10
-27.413
 11
-27.708
 20
43.889
 21
43.663
  0
LINE
  8
0
 10
-27.708
 11
-28.051
 20
43.663
 21
43.52
  0
LINE
  8
0
 10
-28.051
 11
-28.42
 20
43.52
 21
43.472
  0
LINE
  8
0
 10
-28.42
 11
-28.789
 20
43.472
 21
43.52
  0
LINE
  8
0
 10
-28.789
 11
-29.133
 20
43.52
 21
43.663
  0
LINE
  8
0
 10
-29.133
 11
-29.428
 20
43.663
 21
43.889
  0
LINE
  8
0
 10
-29.428
 11
-29.654
 20
43.889
 21
44.184
  0
LINE
  8
0
 10
-29.654
 11
-29.797
 20
44.184
 21
44.528
  0
LINE
  8
0
 10
-29.797
 11
-29.845
 20
44.528
 21
44.897
  0
LINE
  8
0
 10
-26.425
 11
-26.376
 20
35.5
 21
35.869
  0
LINE
  8
0
 10
-26.376
 11
-26.234
 20
35.869
 21
36.213
  0
LINE
  8
0
 10
-26.234
 11
-26.008
 20
36.213
 21
36.508
  0
LINE
  8
0
 10
-26.008
 11
-25.712
 20
36.508
 21
36.734
  0
LINE
  8
0
 10
-25.712
 11
-25.369
 20
36.734
 21
36.876
  0
LINE
  8
0
 10
-25.369
 11
-25
 20
36.876
 21
36.925
  0
LINE
  8
0
 10
-25
 11
-24.631
 20
36.925
 21
36.876
  0
LINE
  8
0
 10
-24.631
 11
-24.287
 20
36.876
 21
36.734
  0
LINE
  8
0
 10
-24.287
 11
-23.992
 20
36.734
 21
36.508
  0
LINE
  8
0
 10
-23.992
 11
-23.766
 20
36.508
 21
36.213
  0
LINE
  8
0
 10
-23.766
 11
-23.624
 20
36.213
 21
35.869
  0
LINE
  8
0
 10
-23.624
 11
-23.575
 20
35.869
 21
35.5
  0
LINE
  8
0
 10
-23.575
 11
-23.624
 20
35.5
 21
35.131
  0
LINE
  8
0
 10
-23.624
 11
-23.766
 20
35.131
 21
34.788
  0
LINE
  8
0
 10
-23.766
 11
-23.992
 20
34.788
 21
34.492
  0
LINE
  8
0
 10
-23.992
 11
-24.287
 20
34.492
 21
34.266
  0
LINE
  8
0
 10
-24.287
 11
-24.631
 20
34.266
 21
34.124
  0
LINE
  8
0
 10
-24.631
 11
-25
 20
34.124
 21
34.075
  0
LINE
  8
0
 10
-25
 11
-25.369
 20
34.075
 21
34.124
  0
LINE
  8
0
 10
-25.369
 11
-25.712
 20
34.124
 21
34.266
  0
LINE
  8
0
 10
-25.712
 11
-26.008
 20
34.266
 21
34.492
  0
LINE
  8
0
 10
-26.008
 11
-26.234
 20
34.492
 21
34.788
  0
LINE
  8
0
 10
-26.234
 11
-26.376
 20
34.788
 21
35.131
  0
LINE
  8
0
 10
-26.376
 11
-26.425
 20
35.131
 21
35.5
  0
LINE
  8
0
 10
-25.919
 11
-25.919
 20
-10.135
 21
-9.865
  0
LINE
  8
0
 10
-25.919
 11
-25.867
 20
-9.865
 21
-9.599
  0
LINE
  8
0
 10
-25.867
 11
-25.767
 20
-9.599
 21
-9.347
  0
LINE
  8
0
 10
-25.767
 11
-25.62
 20
-9.347
 21
-9.119
  0
LINE
  8
0
 10
-25.62
 11
-25.433
 20
-9.119
 21
-8.923
  0
LINE
  8
0
 10
-25.433
 11
-25.212
 20
-8.923
 21
-8.766
  0
LINE
  8
0
 10
-25.212
 11
-24.966
 20
-8.766
 21
-8.653
  0
LINE
  8
0
 10
-24.966
 11
-24.703
 20
-8.653
 21
-8.589
  0
LINE
  8
0
 10
-24.703
 11
-24.432
 20
-8.589
 21
-8.577
  0
LINE
  8
0
 10
-24.432
 11
-24.164
 20
-8.577
 21
-8.615
  0
LINE
  8
0
 10
-24.164
 11
-23.908
 20
-8.615
 21
-8.704
  0
LINE
  8
0
 10
-23.908
 11
-23.673
 20
-8.704
 21
-8.839
  0
LINE
  8
0
 10
-23.673
 11
-23.469
 20
-8.839
 21
-9.017
  0
LINE
  8
0
 10
-23.469
 11
-23.301
 20
-9.017
 21
-9.23
  0
LINE
  8
0
 10
-23.301
 11
-23.177
 20
-9.23
 21
-9.47
  0
LINE
  8
0
 10
-23.177
 11
-23.101
 20
-9.47
 21
-9.73
  0
LINE
  8
0
 10
-23.101
 11
-23.075
 20
-9.73
 21
-10
  0
LINE
  8
0
 10
-23.075
 11
-23.101
 20
-10
 21
-10.27
  0
LINE
  8
0
 10
-23.101
 11
-23.177
 20
-10.27
 21
-10.53
  0
LINE
  8
0
 10
-23.177
 11
-23.301
 20
-10.53
 21
-10.77
  0
LINE
  8
0
 10
-23.301
 11
-23.469
 20
-10.77
 21
-10.983
  0
LINE
  8
0
 10
-23.469
 11
-23.673
 20
-10.983
 21
-11.161
  0
LINE
  8
0
 10
-23.673
 11
-23.908
 20
-11.161
 21
-11.296
  0
LINE
  8
0
 10
-23.908
 11
-24.164
 20
-11.296
 21
-11.385
  0
LINE
  8
0
 10
-24.164
 11
-24.432
 20
-11.385
 21
-11.423
  0
LINE
  8
0
 10
-24.432
 11
-24.703
 20
-11.423
 21
-11.41
  0
LINE
  8
0
 10
-24.703
 11
-24.966
 20
-11.41
 21
-11.347
  0
LINE
  8
0
 10
-24.966
 11
-25.212
 20
-11.347
 21
-11.234
  0
LINE
  8
0
 10
-25.212
 11
-25.433
 20
-11.234
 21
-11.077
  0
LINE
  8
0
 10
-25.433
 11
-25.62
 20
-11.077
 21
-10.881
  0
LINE
  8
0
 10
-25.62
 11
-25.767
 20
-10.881
 21
-10.653
  0
LINE
  8
0
 10
-25.767
 11
-25.867
 20
-10.653
 21
-10.401
  0
LINE
  8
0
 10
-25.867
 11
-25.919
 20
-10.401
 21
-10.135
  0
LINE
  8
0
 10
-25.919
 11
-25.919
 20
10.565
 21
10.835
  0
LINE
  8
0
 10
-25.919
 11
-25.867
 20
10.835
 21
11.101
  0
LINE
  8
0
 10
-25.867
 11
-25.767
 20
11.101
 21
11.353
  0
LINE
  8
0
 10
-25.767
 11
-25.62
 20
11.353
 21
11.581
  0
LINE
  8
0
 10
-25.62
 11
-25.433
 20
11.581
 21
11.777
  0
LINE
  8
0
 10
-25.433
 11
-25.212
 20
11.777
 21
11.934
  0
LINE
  8
0
 10
-25.212
 11
-24.966
 20
11.934
 21
12.047
  0
LINE
  8
0
 10
-24.966
 11
-24.703
 20
12.047
 21
12.111
  0
LINE
  8
0
 10
-24.703
 11
-24.432
 20
12.111
 21
12.123
  0
LINE
  8
0
 10
-24.432
 11
-24.164
 20
12.123
 21
12.085
  0
LINE
  8
0
 10
-24.164
 11
-23.908
 20
12.085
 21
11.996
  0
LINE
  8
0
 10
-23.908
 11
-23.673
 20
11.996
 21
11.861
  0
LINE
  8
0
 10
-23.673
 11
-23.469
 20
11.861
 21
11.683
  0
LINE
  8
0
 10
-23.469
 11
-23.301
 20
11.683
 21
11.47
  0
LINE
  8
0
 10
-23.301
 11
-23.177
 20
11.47
 21
11.23
  0
LINE
  8
0
 10
-23.177
 11
-23.101
 20
11.23
 21
10.97
  0
LINE
  8
0
 10
-23.101
 11
-23.075
 20
10.97
 21
10.7
  0
LINE
  8
0
 10
-23.075
 11
-23.101
 20
10.7
 21
10.43
  0
LINE
  8
0
 10
-23.101
 11
-23.177
 20
10.43
 21
10.17
  0
LINE
  8
0
 10
-23.177
 11
-23.301
 20
10.17
 21
9.93
  0
LINE
  8
0
 10
-23.301
 11
-23.469
 20
9.93
 21
9.717
  0
LINE
  8
0
 10
-23.469
 11
-23.673
 20
9.717
 21
9.539
  0
LINE
  8
0
 10
-23.673
 11
-23.908
 20
9.539
 21
9.404
  0
LINE
  8
0
 10
-23.908
 11
-24.164
 20
9.404
 21
9.315
  0
LINE
  8
0
 10
-24.164
 11
-24.432
 20
9.315
 21
9.277
  0
LINE
  8
0
 10
-24.432
 11
-24.703
 20
9.277
 21
9.29
  0
LINE
  8
0
 10
-24.703
 11
-24.966
 20
9.29
 21
9.353
  0
LINE
  8
0
 10
-24.966
 11
-25.212
 20
9.353
 21
9.466
  0
LINE
  8
0
 10
-25.212
 11
-25.433
 20
9.466
 21
9.623
  0
LINE
  8
0
 10
-25.433
 11
-25.62
 20
9.623
 21
9.819
  0
LINE
  8
0
 10
-25.62
 11
-25.767
 20
9.819
 21
10.047
  0
LINE
  8
0
 10
-25.767
 11
-25.867
 20
10.047
 21
10.299
  0
LINE
  8
0
 10
-25.867
 11
-25.919
 20
10.299
 21
10.565
  0
LINE
  8
0
 10
-16.59
 11
-16.59
 20
10.781
 21
11.619
  0
LINE
  8
0
 10
-16.59
 11
-16.51
 20
11.619
 21
12.452
  0
LINE
  8
0
 10
-16.51
 11
-16.352
 20
12.452
 21
13.275
  0
LINE
  8
0
 10
-16.352
 11
-16.116
 20
13.275
 21
14.078
  0
LINE
  8
0
 10
-16.116
 11
-15.805
 20
14.078
 21
14.856
  0
LINE
  8
0
 10
-15.805
 11
-15.421
 20
14.856
 21
15.6
  0
LINE
  8
0
 10
-15.421
 11
-14.968
 20
15.6
 21
16.305
  0
LINE
  8
0
 10
-14.968
 11
-14.451
 20
16.305
 21
16.963
  0
LINE
  8
0
 10
-14.451
 11
-13.873
 20
16.963
 21
17.569
  0
LINE
  8
0
 10
-13.873
 11
-13.24
 20
17.569
 21
18.117
  0
LINE
  8
0
 10
-13.24
 11
-12.558
 20
18.117
 21
18.603
  0
LINE
  8
0
 10
-12.558
 11
-11.832
 20
18.603
 21
19.022
  0
LINE
  8
0
 10
-11.832
 11
-11.071
 20
19.022
 21
19.37
  0
LINE
  8
0
 10
-11.071
 11
-10.279
 20
19.37
 21
19.644
  0
LINE
  8
0
 10
-10.279
 11
-9.465
 20
19.644
 21
19.841
  0
LINE
  8
0
 10
-9.465
 11
-8.636
 20
19.841
 21
19.96
  0
LINE
  8
0
 10
-8.636
 11
-7.8
 20
19.96
 21
20
  0
LINE
  8
0
 10
-7.8
 11
29.075
 20
20
 21
22.913
  0
LINE
  8
0
 10
29.075
 11
30.043
 20
22.913
 21
22.95
  0
LINE
  8
0
 10
30.043
 11
31.011
 20
22.95
 21
22.906
  0
LINE
  8
0
 10
31.011
 11
31.972
 20
22.906
 21
22.783
  0
LINE
  8
0
 10
31.972
 11
32.919
 20
22.783
 21
22.582
  0
LINE
  8
0
 10
32.919
 11
33.847
 20
22.582
 21
22.302
  0
LINE
  8
0
 10
33.847
 11
34.749
 20
22.302
 21
21.948
  0
LINE
  8
0
 10
34.749
 11
35.618
 20
21.948
 21
21.52
  0
LINE
  8
0
 10
35.618
 11
36.449
 20
21.52
 21
21.022
  0
LINE
  8
0
 10
36.449
 11
37.237
 20
21.022
 21
20.457
  0
LINE
  8
0
 10
37.237
 11
37.975
 20
20.457
 21
19.83
  0
LINE
  8
0
 10
37.975
 11
38.658
 20
19.83
 21
19.143
  0
LINE
  8
0
 10
38.658
 11
39.283
 20
19.143
 21
18.403
  0
LINE
  8
0
 10
39.283
 11
39.845
 20
18.403
 21
17.613
  0
LINE
  8
0
 10
39.845
 11
40.34
 20
17.613
 21
16.781
  0
LINE
  8
0
 10
40.34
 11
40.765
 20
16.781
 21
15.91
  0
LINE
  8
0
 10
40.765
 11
41.116
 20
15.91
 21
15.007
  0
LINE
  8
0
 10
41.116
 11
41.392
 20
15.007
 21
14.078
  0
LINE
  8
0
 10
41.392
 11
41.59
 20
14.078
 21
13.13
  0
LINE
  8
0
 10
41.59
 11
41.71
 20
13.13
 21
12.168
  0
LINE
  8
0
 10
41.71
 11
41.75
 20
12.168
 21
11.2
  0
LINE
  8
0
 10
41.75
 11
41.71
 20
11.2
 21
10.232
  0
LINE
  8
0
 10
41.71
 11
41.59
 20
10.232
 21
9.27
  0
LINE
  8
0
 10
41.59
 11
41.392
 20
9.27
 21
8.322
  0
LINE
  8
0
 10
41.392
 11
41.116
 20
8.322
 21
7.393
  0
LINE
  8
0
 10
41.116
 11
40.765
 20
7.393
 21
6.49
  0
LINE
  8
0
 10
40.765
 11
40.34
 20
6.49
 21
5.619
  0
LINE
  8
0
 10
40.34
 11
39.845
 20
5.619
 21
4.787
  0
LINE
  8
0
 10
39.845
 11
39.283
 20
4.787
 21
3.997
  0
LINE
  8
0
 10
39.283
 11
38.658
 20
3.997
 21
3.257
  0
LINE
  8
0
 10
38.658
 11
37.975
 20
3.257
 21
2.57
  0
LINE
  8
0
 10
37.975
 11
37.237
 20
2.57
 21
1.943
  0
LINE
  8
0
 10
37.237
 11
36.449
 20
1.943
 21
1.378
  0
LINE
  8
0
 10
36.449
 11
35.618
 20
1.378
 21
0.88
  0
LINE
  8
0
 10
35.618
 11
34.749
 20
0.88
 21
0.452
  0
LINE
  8
0
 10
34.749
 11
33.847
 20
0.452
 21
0.098
  0
LINE
  8
0
 10
33.847
 11
32.919
 20
0.098
 21
-0.182
  0
LINE
  8
0
 10
32.919
 11
31.972
 20
-0.182
 21
-0.383
  0
LINE
  8
0
 10
31.972
 11
31.011
 20
-0.383
 21
-0.506
  0
LINE
  8
0
 10
31.011
 11
30.043
 20
-0.506
 21
-0.55
  0
LINE
  8
0
 10
30.043
 11
29.075
 20
-0.55
 21
-0.513
  0
LINE
  8
0
 10
29.075
 11
-7.8
 20
-0.513
 21
2.4
  0
LINE
  8
0
 10
-7.8
 11
-8.636
 20
2.4
 21
2.44
  0
LINE
  8
0
 10
-8.636
 11
-9.465
 20
2.44
 21
2.559
  0
LINE
  8
0
 10
-9.465
 11
-10.279
 20
2.559
 21
2.756
  0
LINE
  8
0
 10
-10.279
 11
-11.071
 20
2.756
 21
3.03
  0
LINE
  8
0
 10
-11.071
 11
-11.832
 20
3.03
 21
3.378
  0
LINE
  8
0
 10
-11.832
 11
-12.558
 20
3.378
 21
3.797
  0
LINE
  8
0
 10
-12.558
 11
-13.24
 20
3.797
 21
4.283
  0
LINE
  8
0
 10
-13.24
 11
-13.873
 20
4.283
 21
4.831
  0
LINE
  8
0
 10
-13.873
 11
-14.451
 20
4.831
 21
5.437
  0
LINE
  8
0
 10
-14.451
 11
-14.968
 20
5.437
 21
6.095
  0
LINE
  8
0
 10
-14.968
 11
-15.421
 20
6.095
 21
6.8
  0
LINE
  8
0
 10
-15.421
 11
-15.805
 20
6.8
 21
7.544
  0
LINE
  8
0
 10
-15.805
 11
-16.116
 20
7.544
 21
8.322
  0
LINE
  8
0
 10
-16.116
 11
-16.352
 20
8.322
 21
9.125
  0
LINE
  8
0
 10
-16.352
 11
-16.51
 20
9.125
 21
9.948
  0
LINE
  8
0
 10
-16.51
 11
-16.59
 20
9.948
 21
10.781
  0
LINE
  8
0
 10
-10.5
 11
-10.464
 20
-12
 21
-11.137
  0
LINE
  8
0
 10
-10.464
 11
-10.358
 20
-11.137
 21
-10.28
  0
LINE
  8
0
 10
-10.358
 11
-10.182
 20
-10.28
 21
-9.435
  0
LINE
  8
0
 10
-10.182
 11
-9.937
 20
-9.435
 21
-8.607
  0
LINE
  8
0
 10
-9.937
 11
-9.624
 20
-8.607
 21
-7.802
  0
LINE
  8
0
 10
-9.624
 11
-9.247
 20
-7.802
 21
-7.026
  0
LINE
  8
0
 10
-9.247
 11
-8.807
 20
-7.026
 21
-6.283
  0
LINE
  8
0
 10
-8.807
 11
-8.308
 20
-6.283
 21
-5.579
  0
LINE
  8
0
 10
-8.308
 11
-7.752
 20
-5.579
 21
-4.918
  0
LINE
  8
0
 10
-7.752
 11
-7.144
 20
-4.918
 21
-4.305
  0
LINE
  8
0
 10
-7.144
 11
-6.488
 20
-4.305
 21
-3.744
  0
LINE
  8
0
 10
-6.488
 11
-5.787
 20
-3.744
 21
-3.239
  0
LINE
  8
0
 10
-5.787
 11
-5.048
 20
-3.239
 21
-2.793
  0
LINE
  8
0
 10
-5.048
 11
-4.274
 20
-2.793
 21
-2.409
  0
LINE
  8
0
 10
-4.274
 11
-3.472
 20
-2.409
 21
-2.091
  0
LINE
  8
0
 10
-3.472
 11
-2.646
 20
-2.091
 21
-1.839
  0
LINE
  8
0
 10
-2.646
 11
-1.802
 20
-1.839
 21
-1.656
  0
LINE
  8
0
 10
-1.802
 11
-0.946
 20
-1.656
 21
-1.543
  0
LINE
  8
0
 10
-0.946
 11
-0.084
 20
-1.543
 21
-1.5
  0
LINE
  8
0
 10
-0.084
 11
0.779
 20
-1.5
 21
-1.529
  0
LINE
  8
0
 10
0.779
 11
34
 20
-1.529
 21
-4
  0
LINE
  8
0
 10
34
 11
34.738
 20
-4
 21
-4.034
  0
LINE
  8
0
 10
34.738
 11
35.47
 20
-4.034
 21
-4.136
  0
LINE
  8
0
 10
35.47
 11
36.189
 20
-4.136
 21
-4.305
  0
LINE
  8
0
 10
36.189
 11
36.89
 20
-4.305
 21
-4.54
  0
LINE
  8
0
 10
36.89
 11
37.566
 20
-4.54
 21
-4.839
  0
LINE
  8
0
 10
37.566
 11
38.211
 20
-4.839
 21
-5.198
  0
LINE
  8
0
 10
38.211
 11
38.821
 20
-5.198
 21
-5.616
  0
LINE
  8
0
 10
38.821
 11
39.39
 20
-5.616
 21
-6.088
  0
LINE
  8
0
 10
39.39
 11
39.912
 20
-6.088
 21
-6.61
  0
LINE
  8
0
 10
39.912
 11
40.384
 20
-6.61
 21
-7.179
  0
LINE
  8
0
 10
40.384
 11
40.802
 20
-7.179
 21
-7.789
  0
LINE
  8
0
 10
40.802
 11
41.161
 20
-7.789
 21
-8.434
  0
LINE
  8
0
 10
41.161
 11
41.46
 20
-8.434
 21
-9.11
  0
LINE
  8
0
 10
41.46
 11
41.695
 20
-9.11
 21
-9.811
  0
LINE
  8
0
 10
41.695
 11
41.864
 20
-9.811
 21
-10.53
  0
LINE
  8
0
 10
41.864
 11
41.966
 20
-10.53
 21
-11.262
  0
LINE
  8
0
 10
41.966
 11
42
 20
-11.262
 21
-12
  0
LINE
  8
0
 10
42
 11
41.966
 20
-12
 21
-12.738
  0
LINE
  8
0
 10
41.966
 11
41.864
 20
-12.738
 21
-13.47
  0
LINE
  8
0
 10
41.864
 11
41.695
 20
-13.47
 21
-14.189
  0
LINE
  8
0
 10
41.695
 11
41.46
 20
-14.189
 21
-14.89
  0
LINE
  8
0
 10
41.46
 11
41.161
 20
-14.89
 21
-15.566
  0
LINE
  8
0
 10
41.161
 11
40.802
 20
-15.566
 21
-16.211
  0
LINE
  8
0
 10
40.802
 11
40.384
 20
-16.211
 21
-16.821
  0
LINE
  8
0
 10
40.384
 11
39.912
 20
-16.821
 21
-17.39
  0
LINE
  8
0
 10
39.912
 11
39.39
 20
-17.39
 21
-17.912
  0
LINE
  8
0
 10
39.39
 11
38.821
 20
-17.912
 21
-18.384
  0
LINE
  8
0
 10
38.821
 11
38.211
 20
-18.384
 21
-18.802
  0
LINE
  8
0
 10
38.211
 11
37.566
 20
-18.802
 21
-19.161
  0
LINE
  8
0
 10
37.566
 11
36.89
 20
-19.161
 21
-19.46
  0
LINE
  8
0
 10
36.89
 11
36.189
 20
-19.46
 21
-19.695
  0
LINE
  8
0
 10
36.189
 11
35.47
 20
-19.695
 21
-19.864
  0
LINE
  8
0
 10
35.47
 11
34.738
 20
-19.864
 21
-19.966
  0
LINE
  8
0
 10
34.738
 11
34
 20
-19.966
 21
-20
  0
LINE
  8
0
 10
34
 11
0.779
 20
-20
 21
-22.471
  0
LINE
  8
0
 10
0.779
 11
-0.084
 20
-22.471
 21
-22.5
  0
LINE
  8
0
 10
-0.084
 11
-0.946
 20
-22.5
 21
-22.457
  0
LINE
  8
0
 10
-0.946
 11
-1.802
 20
-22.457
 21
-22.344
  0
LINE
  8
0
 10
-1.802
 11
-2.646
 20
-22.344
 21
-22.161
  0
LINE
  8
0
 10
-2.646
 11
-3.472
 20
-22.161
 21
-21.909
  0
LINE
  8
0
 10
-3.472
 11
-4.274
 20
-21.909
 21
-21.591
  0
LINE
  8
0
 10
-4.274
 11
-5.048
 20
-21.591
 21
-21.207
  0
LINE
  8
0
 10
-5.048
 11
-5.787
 20
-21.207
 21
-20.761
  0
LINE
  8
0
 10
-5.787
 11
-6.488
 20
-20.761
 21
-20.256
  0
LINE
  8
0
 10
-6.488
 11
-7.144
 20
-20.256
 21
-19.695
  0
LINE
  8
0
 10
-7.144
 11
-7.752
 20
-19.695
 21
-19.082
  0
LINE
  8
0
 10
-7.752
 11
-8.308
 20
-19.082
 21
-18.421
  0
LINE
  8
0
 10
-8.308
 11
-8.807
 20
-18.421
 21
-17.717
  0
LINE
  8
0
 10
-8.807
 11
-9.247
 20
-17.717
 21
-16.974
  0
LINE
  8
0
 10
-9.247
 11
-9.624
 20
-16.974
 21
-16.198
  0
LINE
  8
0
 10
-9.624
 11
-9.937
 20
-16.198
 21
-15.393
  0
LINE
  8
0
 10
-9.937
 11
-10.182
 20
-15.393
 21
-14.565
  0
LINE
  8
0
 10
-10.182
 11
-10.358
 20
-14.565
 21
-13.72
  0
LINE
  8
0
 10
-10.358
 11
-10.464
 20
-13.72
 21
-12.863
  0
LINE
  8
0
 10
-10.464
 11
-10.5
 20
-12.863
 21
-12
  0
LINE
  8
0
 10
-9.225
 11
-9.187
 20
11.2
 21
11.529
  0
LINE
  8
0
 10
-9.187
 11
-9.073
 20
11.529
 21
11.84
  0
LINE
  8
0
 10
-9.073
 11
-8.892
 20
11.84
 21
12.116
  0
LINE
  8
0
 10
-8.892
 11
-8.651
 20
12.116
 21
12.343
  0
LINE
  8
0
 10
-8.651
 11
-8.364
 20
12.343
 21
12.508
  0
LINE
  8
0
 10
-8.364
 11
-8.047
 20
12.508
 21
12.603
  0
LINE
  8
0
 10
-8.047
 11
-7.717
 20
12.603
 21
12.623
  0
LINE
  8
0
 10
-7.717
 11
-7.391
 20
12.623
 21
12.565
  0
LINE
  8
0
 10
-7.391
 11
-7.087
 20
12.565
 21
12.434
  0
LINE
  8
0
 10
-7.087
 11
-6.822
 20
12.434
 21
12.237
  0
LINE
  8
0
 10
-6.822
 11
-6.609
 20
12.237
 21
11.983
  0
LINE
  8
0
 10
-6.609
 11
-6.461
 20
11.983
 21
11.687
  0
LINE
  8
0
 10
-6.461
 11
-6.385
 20
11.687
 21
11.365
  0
LINE
  8
0
 10
-6.385
 11
-6.385
 20
11.365
 21
11.035
  0
LINE
  8
0
 10
-6.385
 11
-6.461
 20
11.035
 21
10.713
  0
LINE
  8
0
 10
-6.461
 11
-6.609
 20
10.713
 21
10.417
  0
LINE
  8
0
 10
-6.609
 11
-6.822
 20
10.417
 21
10.163
  0
LINE
  8
0
 10
-6.822
 11
-7.087
 20
10.163
 21
9.966
  0
LINE
  8
0
 10
-7.087
 11
-7.391
 20
9.966
 21
9.835
  0
LINE
  8
0
 10
-7.391
 11
-7.717
 20
9.835
 21
9.777
  0
LINE
  8
0
 10
-7.717
 11
-8.047
 20
9.777
 21
9.797
  0
LINE
  8
0
 10
-8.047
 11
-8.364
 20
9.797
 21
9.892
  0
LINE
  8
0
 10
-8.364
 11
-8.651
 20
9.892
 21
10.057
  0
LINE
  8
0
 10
-8.651
 11
-8.892
 20
10.057
 21
10.284
  0
LINE
  8
0
 10
-8.892
 11
-9.073
 20
10.284
 21
10.56
  0
LINE
  8
0
 10
-9.073
 11
-9.187
 20
10.56
 21
10.871
  0
LINE
  8
0
 10
-9.187
 11
-9.225
 20
10.871
 21
11.2
  0
LINE
  8
0
 10
-6.422
 11
-6.386
 20
-8.501
 21
-8.184
  0
LINE
  8
0
 10
-6.386
 11
-6.281
 20
-8.184
 21
-7.883
  0
LINE
  8
0
 10
-6.281
 11
-6.111
 20
-7.883
 21
-7.613
  0
LINE
  8
0
 10
-6.111
 11
-5.885
 20
-7.613
 21
-7.387
  0
LINE
  8
0
 10
-5.885
 11
-5.615
 20
-7.387
 21
-7.217
  0
LINE
  8
0
 10
-5.615
 11
-5.314
 20
-7.217
 21
-7.112
  0
LINE
  8
0
 10
-5.314
 11
-4.997
 20
-7.112
 21
-7.076
  0
LINE
  8
0
 10
-4.997
 11
-4.68
 20
-7.076
 21
-7.112
  0
LINE
  8
0
 10
-4.68
 11
-4.379
 20
-7.112
 21
-7.217
  0
LINE
  8
0
 10
-4.379
 11
-4.108
 20
-7.217
 21
-7.387
  0
LINE
  8
0
 10
-4.108
 11
-3.883
 20
-7.387
 21
-7.613
  0
LINE
  8
0
 10
-3.883
 11
-3.713
 20
-7.613
 21
-7.883
  0
LINE
  8
0
 10
-3.713
 11
-3.608
 20
-7.883
 21
-8.184
  0
LINE
  8
0
 10
-3.608
 11
-3.572
 20
-8.184
 21
-8.501
  0
LINE
  8
0
 10
-3.572
 11
-3.608
 20
-8.501
 21
-8.818
  0
LINE
  8
0
 10
-3.608
 11
-3.713
 20
-8.818
 21
-9.119
  0
LINE
  8
0
 10
-3.713
 11
-3.883
 20
-9.119
 21
-9.39
  0
LINE
  8
0
 10
-3.883
 11
-4.108
 20
-9.39
 21
-9.615
  0
LINE
  8
0
 10
-4.108
 11
-4.379
 20
-9.615
 21
-9.785
  0
LINE
  8
0
 10
-4.379
 11
-4.68
 20
-9.785
 21
-9.89
  0
LINE
  8
0
 10
-4.68
 11
-4.997
 20
-9.89
 21
-9.926
  0
LINE
  8
0
 10
-4.997
 11
-5.314
 20
-9.926
 21
-9.89
  0
LINE
  8
0
 10
-5.314
 11
-5.615
 20
-9.89
 21
-9.785
  0
LINE
  8
0
 10
-5.615
 11
-5.885
 20
-9.785
 21
-9.615
  0
LINE
  8
0
 10
-5.885
 11
-6.111
 20
-9.615
 21
-9.39
  0
LINE
  8
0
 10
-6.111
 11
-6.281
 20
-9.39
 21
-9.119
  0
LINE
  8
0
 10
-6.281
 11
-6.386
 20
-9.119
 21
-8.818
  0
LINE
  8
0
 10
-6.386
 11
-6.422
 20
-8.818
 21
-8.501
  0
LINE
  8
0
 10
-3.5
 11
-3.477
 20
-40.02
 21
-39.598
  0
LINE
  8
0
 10
-3.477
 11
-3.403
 20
-39.598
 21
-39.182
  0
LINE
  8
0
 10
-3.403
 11
-3.28
 20
-39.182
 21
-38.778
  0
LINE
  8
0
 10
-3.28
 11
-3.109
 20
-38.778
 21
-38.392
  0
LINE
  8
0
 10
-3.109
 11
-2.892
 20
-38.392
 21
-38.029
  0
LINE
  8
0
 10
-2.892
 11
-2.633
 20
-38.029
 21
-37.694
  0
LINE
  8
0
 10
-2.633
 11
-2.336
 20
-37.694
 21
-37.394
  0
LINE
  8
0
 10
-2.336
 11
-2.005
 20
-37.394
 21
-37.131
  0
LINE
  8
0
 10
-2.005
 11
-1.645
 20
-37.131
 21
-36.91
  0
LINE
  8
0
 10
-1.645
 11
-1.26
 20
-36.91
 21
-36.735
  0
LINE
  8
0
 10
-1.26
 11
-0.857
 20
-36.735
 21
-36.607
  0
LINE
  8
0
 10
-0.857
 11
-0.442
 20
-36.607
 21
-36.528
  0
LINE
  8
0
 10
-0.442
 11
26.677
 20
-36.528
 21
-33.074
  0
LINE
  8
0
 10
26.677
 11
27.371
 20
-33.074
 21
-32.949
  0
LINE
  8
0
 10
27.371
 11
28.072
 20
-32.949
 21
-32.876
  0
LINE
  8
0
 10
28.072
 11
28.778
 20
-32.876
 21
-32.857
  0
LINE
  8
0
 10
28.778
 11
29.482
 20
-32.857
 21
-32.892
  0
LINE
  8
0
 10
29.482
 11
30.182
 20
-32.892
 21
-32.981
  0
LINE
  8
0
 10
30.182
 11
30.873
 20
-32.981
 21
-33.122
  0
LINE
  8
0
 10
30.873
 11
31.551
 20
-33.122
 21
-33.315
  0
LINE
  8
0
 10
31.551
 11
32.213
 20
-33.315
 21
-33.56
  0
LINE
  8
0
 10
32.213
 11
32.854
 20
-33.56
 21
-33.854
  0
LINE
  8
0
 10
32.854
 11
33.471
 20
-33.854
 21
-34.196
  0
LINE
  8
0
 10
33.471
 11
34.06
 20
-34.196
 21
-34.584
  0
LINE
  8
0
 10
34.06
 11
34.617
 20
-34.584
 21
-35.016
  0
LINE
  8
0
 10
34.617
 11
35.141
 20
-35.016
 21
-35.489
  0
LINE
  8
0
 10
35.141
 11
35.627
 20
-35.489
 21
-36
  0
LINE
  8
0
 10
35.627
 11
37.003
 20
-36
 21
-38.046
  0
LINE
  8
0
 10
37.003
 11
37.218
 20
-38.046
 21
-38.41
  0
LINE
  8
0
 10
37.218
 11
37.387
 20
-38.41
 21
-38.797
  0
LINE
  8
0
 10
37.387
 11
37.508
 20
-38.797
 21
-39.202
  0
LINE
  8
0
 10
37.508
 11
37.579
 20
-39.202
 21
-39.619
  0
LINE
  8
0
 10
37.579
 11
37.6
 20
-39.619
 21
-40.041
  0
LINE
  8
0
 10
37.6
 11
37.569
 20
-40.041
 21
-40.462
  0
LINE
  8
0
 10
37.569
 11
37.488
 20
-40.462
 21
-40.877
  0
LINE
  8
0
 10
37.488
 11
37.358
 20
-40.877
 21
-41.279
  0
LINE
  8
0
 10
37.358
 11
37.18
 20
-41.279
 21
-41.663
  0
LINE
  8
0
 10
37.18
 11
36.957
 20
-41.663
 21
-42.022
  0
LINE
  8
0
 10
36.957
 11
36.692
 20
-42.022
 21
-42.351
  0
LINE
  8
0
 10
36.692
 11
36.39
 20
-42.351
 21
-42.647
  0
LINE
  8
0
 10
36.39
 11
36.054
 20
-42.647
 21
-42.903
  0
LINE
  8
0
 10
36.054
 11
35.69
 20
-42.903
 21
-43.118
  0
LINE
  8
0
 10
35.69
 11
35.303
 20
-43.118
 21
-43.287
  0
LINE
  8
0
 10
35.303
 11
34.898
 20
-43.287
 21
-43.408
  0
LINE
  8
0
 10
34.898
 11
34.481
 20
-43.408
 21
-43.479
  0
LINE
  8
0
 10
34.481
 11
34.059
 20
-43.479
 21
-43.5
  0
LINE
  8
0
 10
34.059
 11
33.638
 20
-43.5
 21
-43.469
  0
LINE
  8
0
 10
33.638
 11
33.223
 20
-43.469
 21
-43.388
  0
LINE
  8
0
 10
33.223
 11
32.821
 20
-43.388
 21
-43.258
  0
LINE
  8
0
 10
32.821
 11
32.437
 20
-43.258
 21
-43.08
  0
LINE
  8
0
 10
32.437
 11
32.078
 20
-43.08
 21
-42.857
  0
LINE
  8
0
 10
32.078
 11
31.749
 20
-42.857
 21
-42.593
  0
LINE
  8
0
 10
31.749
 11
31.453
 20
-42.593
 21
-42.29
  0
LINE
  8
0
 10
31.453
 11
31.197
 20
-42.29
 21
-41.954
  0
LINE
  8
0
 10
31.197
 11
30.34
 20
-41.954
 21
-40.682
  0
LINE
  8
0
 10
30.34
 11
30.089
 20
-40.682
 21
-40.458
  0
LINE
  8
0
 10
30.089
 11
29.811
 20
-40.458
 21
-40.269
  0
LINE
  8
0
 10
29.811
 11
29.51
 20
-40.269
 21
-40.118
  0
LINE
  8
0
 10
29.51
 11
29.193
 20
-40.118
 21
-40.008
  0
LINE
  8
0
 10
29.193
 11
28.863
 20
-40.008
 21
-39.941
  0
LINE
  8
0
 10
28.863
 11
28.528
 20
-39.941
 21
-39.917
  0
LINE
  8
0
 10
28.528
 11
28.193
 20
-39.917
 21
-39.938
  0
LINE
  8
0
 10
28.193
 11
0.442
 20
-39.938
 21
-43.472
  0
LINE
  8
0
 10
0.442
 11
0.02
 20
-43.472
 21
-43.5
  0
LINE
  8
0
 10
0.02
 11
-0.402
 20
-43.5
 21
-43.477
  0
LINE
  8
0
 10
-0.402
 11
-0.818
 20
-43.477
 21
-43.403
  0
LINE
  8
0
 10
-0.818
 11
-1.222
 20
-43.403
 21
-43.28
  0
LINE
  8
0
 10
-1.222
 11
-1.608
 20
-43.28
 21
-43.109
  0
LINE
  8
0
 10
-1.608
 11
-1.971
 20
-43.109
 21
-42.892
  0
LINE
  8
0
 10
-1.971
 11
-2.306
 20
-42.892
 21
-42.633
  0
LINE
  8
0
 10
-2.306
 11
-2.606
 20
-42.633
 21
-42.336
  0
LINE
  8
0
 10
-2.606
 11
-2.869
 20
-42.336
 21
-42.005
  0
LINE
  8
0
 10
-2.869
 11
-3.09
 20
-42.005
 21
-41.645
  0
LINE
  8
0
 10
-3.09
 11
-3.265
 20
-41.645
 21
-41.26
  0
LINE
  8
0
 10
-3.265
 11
-3.393
 20
-41.26
 21
-40.857
  0
LINE
  8
0
 10
-3.393
 11
-3.472
 20
-40.857
 21
-40.442
  0
LINE
  8
0
 10
-3.472
 11
-3.5
 20
-40.442
 21
-40.02
  0
LINE
  8
0
 10
-1.425
 11
-1.389
 20
-12
 21
-11.683
  0
LINE
  8
0
 10
-1.389
 11
-1.284
 20
-11.683
 21
-11.382
  0
LINE
  8
0
 10
-1.284
 11
-1.114
 20
-11.382
 21
-11.112
  0
LINE
  8
0
 10
-1.114
 11
-0.888
 20
-11.112
 21
-10.886
  0
LINE
  8
0
 10
-0.888
 11
-0.618
 20
-10.886
 21
-10.716
  0
LINE
  8
0
 10
-0.618
 11
-0.317
 20
-10.716
 21
-10.611
  0
LINE
  8
0
 10
-0.317
 11
0
 20
-10.611
 21
-10.575
  0
LINE
  8
0
 10
0
 11
0.317
 20
-10.575
 21
-10.611
  0
LINE
  8
0
 10
0.317
 11
0.618
 20
-10.611
 21
-10.716
  0
LINE
  8
0
 10
0.618
 11
0.888
 20
-10.716
 21
-10.886
  0
LINE
  8
0
 10
0.888
 11
1.114
 20
-10.886
 21
-11.112
  0
LINE
  8
0
 10
1.114
 11
1.284
 20
-11.112
 21
-11.382
  0
LINE
  8
0
 10
1.284
 11
1.389
 20
-11.382
 21
-11.683
  0
LINE
  8
0
 10
1.389
 11
1.425
 20
-11.683
 21
-12
  0
LINE
  8
0
 10
1.425
 11
1.389
 20
-12
 21
-12.317
  0
LINE
  8
0
 10
1.389
 11
1.284
 20
-12.317
 21
-12.618
  0
LINE
  8
0
 10
1.284
 11
1.114
 20
-12.618
 21
-12.888
  0
LINE
  8
0
 10
1.114
 11
0.888
 20
-12.888
 21
-13.114
  0
LINE
  8
0
 10
0.888
 11
0.618
 20
-13.114
 21
-13.284
  0
LINE
  8
0
 10
0.618
 11
0.317
 20
-13.284
 21
-13.389
  0
LINE
  8
0
 10
0.317
 11
0
 20
-13.389
 21
-13.425
  0
LINE
  8
0
 10
0
 11
-0.317
 20
-13.425
 21
-13.389
  0
LINE
  8
0
 10
-0.317
 11
-0.618
 20
-13.389
 21
-13.284
  0
LINE
  8
0
 10
-0.618
 11
-0.888
 20
-13.284
 21
-13.114
  0
LINE
  8
0
 10
-0.888
 11
-1.114
 20
-13.114
 21
-12.888
  0
LINE
  8
0
 10
-1.114
 11
-1.284
 20
-12.888
 21
-12.618
  0
LINE
  8
0
 10
-1.284
 11
-1.389
 20
-12.618
 21
-12.317
  0
LINE
  8
0
 10
-1.389
 11
-1.425
 20
-12.317
 21
-12
  0
LINE
  8
0
 10
-1.419
 11
-1.419
 20
-40.135
 21
-39.865
  0
LINE
  8
0
 10
-1.419
 11
-1.367
 20
-39.865
 21
-39.599
  0
LINE
  8
0
 10
-1.367
 11
-1.267
 20
-39.599
 21
-39.347
  0
LINE
  8
0
 10
-1.267
 11
-1.12
 20
-39.347
 21
-39.119
  0
LINE
  8
0
 10
-1.12
 11
-0.933
 20
-39.119
 21
-38.923
  0
LINE
  8
0
 10
-0.933
 11
-0.713
 20
-38.923
 21
-38.766
  0
LINE
  8
0
 10
-0.713
 11
-0.466
 20
-38.766
 21
-38.653
  0
LINE
  8
0
 10
-0.466
 11
-0.203
 20
-38.653
 21
-38.59
  0
LINE
  8
0
 10
-0.203
 11
0.068
 20
-38.59
 21
-38.577
  0
LINE
  8
0
 10
0.068
 11
0.336
 20
-38.577
 21
-38.615
  0
LINE
  8
0
 10
0.336
 11
0.592
 20
-38.615
 21
-38.704
  0
LINE
  8
0
 10
0.592
 11
0.827
 20
-38.704
 21
-38.839
  0
LINE
  8
0
 10
0.827
 11
1.031
 20
-38.839
 21
-39.017
  0
LINE
  8
0
 10
1.031
 11
1.199
 20
-39.017
 21
-39.23
  0
LINE
  8
0
 10
1.199
 11
1.323
 20
-39.23
 21
-39.47
  0
LINE
  8
0
 10
1.323
 11
1.399
 20
-39.47
 21
-39.73
  0
LINE
  8
0
 10
1.399
 11
1.425
 20
-39.73
 21
-40
  0
LINE
  8
0
 10
1.425
 11
1.399
 20
-40
 21
-40.27
  0
LINE
  8
0
 10
1.399
 11
1.323
 20
-40.27
 21
-40.53
  0
LINE
  8
0
 10
1.323
 11
1.199
 20
-40.53
 21
-40.77
  0
LINE
  8
0
 10
1.199
 11
1.031
 20
-40.77
 21
-40.983
  0
LINE
  8
0
 10
1.031
 11
0.827
 20
-40.983
 21
-41.161
  0
LINE
  8
0
 10
0.827
 11
0.592
 20
-41.161
 21
-41.296
  0
LINE
  8
0
 10
0.592
 11
0.336
 20
-41.296
 21
-41.385
  0
LINE
  8
0
 10
0.336
 11
0.068
 20
-41.385
 21
-41.423
  0
LINE
  8
0
 10
0.068
 11
-0.203
 20
-41.423
 21
-41.41
  0
LINE
  8
0
 10
-0.203
 11
-0.466
 20
-41.41
 21
-41.347
  0
LINE
  8
0
 10
-0.466
 11
-0.713
 20
-41.347
 21
-41.234
  0
LINE
  8
0
 10
-0.713
 11
-0.933
 20
-41.234
 21
-41.077
  0
LINE
  8
0
 10
-0.933
 11
-1.12
 20
-41.077
 21
-40.881
  0
LINE
  8
0
 10
-1.12
 11
-1.267
 20
-40.881
 21
-40.653
  0
LINE
  8
0
 10
-1.267
 11
-1.367
 20
-40.653
 21
-40.401
  0
LINE
  8
0
 10
-1.367
 11
-1.419
 20
-40.401
 21
-40.135
  0
LINE
  8
0
 10
8.577
 11
8.597
 20
-28.071
 21
-27.753
  0
LINE
  8
0
 10
8.597
 11
8.687
 20
-27.753
 21
-27.446
  0
LINE
  8
0
 10
8.687
 11
8.843
 20
-27.446
 21
-27.168
  0
LINE
  8
0
 10
8.843
 11
9.057
 20
-27.168
 21
-26.932
  0
LINE
  8
0
 10
9.057
 11
9.318
 20
-26.932
 21
-26.749
  0
LINE
  8
0
 10
9.318
 11
9.614
 20
-26.749
 21
-26.628
  0
LINE
  8
0
 10
9.614
 11
9.929
 20
-26.628
 21
-26.577
  0
LINE
  8
0
 10
9.929
 11
10.247
 20
-26.577
 21
-26.597
  0
LINE
  8
0
 10
10.247
 11
10.554
 20
-26.597
 21
-26.687
  0
LINE
  8
0
 10
10.554
 11
10.832
 20
-26.687
 21
-26.843
  0
LINE
  8
0
 10
10.832
 11
11.068
 20
-26.843
 21
-27.057
  0
LINE
  8
0
 10
11.068
 11
11.251
 20
-27.057
 21
-27.318
  0
LINE
  8
0
 10
11.251
 11
11.372
 20
-27.318
 21
-27.614
  0
LINE
  8
0
 10
11.372
 11
11.423
 20
-27.614
 21
-27.929
  0
LINE
  8
0
 10
11.423
 11
11.403
 20
-27.929
 21
-28.247
  0
LINE
  8
0
 10
11.403
 11
11.313
 20
-28.247
 21
-28.554
  0
LINE
  8
0
 10
11.313
 11
11.157
 20
-28.554
 21
-28.832
  0
LINE
  8
0
 10
11.157
 11
10.943
 20
-28.832
 21
-29.068
  0
LINE
  8
0
 10
10.943
 11
10.682
 20
-29.068
 21
-29.251
  0
LINE
  8
0
 10
10.682
 11
10.386
 20
-29.251
 21
-29.372
  0
LINE
  8
0
 10
10.386
 11
10.071
 20
-29.372
 21
-29.423
  0
LINE
  8
0
 10
10.071
 11
9.753
 20
-29.423
 21
-29.403
  0
LINE
  8
0
 10
9.753
 11
9.446
 20
-29.403
 21
-29.313
  0
LINE
  8
0
 10
9.446
 11
9.168
 20
-29.313
 21
-29.157
  0
LINE
  8
0
 10
9.168
 11
8.932
 20
-29.157
 21
-28.943
  0
LINE
  8
0
 10
8.932
 11
8.749
 20
-28.943
 21
-28.682
  0
LINE
  8
0
 10
8.749
 11
8.628
 20
-28.682
 21
-28.386
  0
LINE
  8
0
 10
8.628
 11
8.577
 20
-28.386
 21
-28.071
  0
LINE
  8
0
 10
23.575
 11
23.624
 20
29.4
 21
29.769
  0
LINE
  8
0
 10
23.624
 11
23.766
 20
29.769
 21
30.112
  0
LINE
  8
0
 10
23.766
 11
23.992
 20
30.112
 21
30.408
  0
LINE
  8
0
 10
23.992
 11
24.287
 20
30.408
 21
30.634
  0
LINE
  8
0
 10
24.287
 11
24.631
 20
30.634
 21
30.776
  0
LINE
  8
0
 10
24.631
 11
25
 20
30.776
 21
30.825
  0
LINE
  8
0
 10
25
 11
25.369
 20
30.825
 21
30.776
  0
LINE
  8
0
 10
25.369
 11
25.712
 20
30.776
 21
30.634
  0
LINE
  8
0
 10
25.712
 11
26.008
 20
30.634
 21
30.408
  0
LINE
  8
0
 10
26.008
 11
26.234
 20
30.408
 21
30.112
  0
LINE
  8
0
 10
26.234
 11
26.376
 20
30.112
 21
29.769
  0
LINE
  8
0
 10
26.376
 11
26.425
 20
29.769
 21
29.4
  0
LINE
  8
0
 10
26.425
 11
26.376
 20
29.4
 21
29.031
  0
LINE
  8
0
 10
26.376
 11
26.234
 20
29.031
 21
28.688
  0
LINE
  8
0
 10
26.234
 11
26.008
 20
28.688
 21
28.392
  0
LINE
  8
0
 10
26.008
 11
25.712
 20
28.392
 21
28.166
  0
LINE
  8
0
 10
25.712
 11
25.369
 20
28.166
 21
28.024
  0
LINE
  8
0
 10
25.369
 11
25
 20
28.024
 21
27.975
  0
LINE
  8
0
 10
25
 11
24.631
 20
27.975
 21
28.024
  0
LINE
  8
0
 10
24.631
 11
24.287
 20
28.024
 21
28.166
  0
LINE
  8
0
 10
24.287
 11
23.992
 20
28.166
 21
28.392
  0
LINE
  8
0
 10
23.992
 11
23.766
 20
28.392
 21
28.688
  0
LINE
  8
0
 10
23.766
 11
23.624
 20
28.688
 21
29.031
  0
LINE
  8
0
 10
23.624
 11
23.575
 20
29.031
 21
29.4
  0
LINE
  8
0
 10
23.575
 11
23.624
 20
35.5
 21
35.869
  0
LINE
  8
0
 10
23.624
 11
23.766
 20
35.869
 21
36.213
  0
LINE
  8
0
 10
23.766
 11
23.992
 20
36.213
 21
36.508
  0
LINE
  8
0
 10
23.992
 11
24.287
 20
36.508
 21
36.734
  0
LINE
  8
0
 10
24.287
 11
24.631
 20
36.734
 21
36.876
  0
LINE
  8
0
 10
24.631
 11
25
 20
36.876
 21
36.925
  0
LINE
  8
0
 10
25
 11
25.369
 20
36.925
 21
36.876
  0
LINE
  8
0
 10
25.369
 11
25.712
 20
36.876
 21
36.734
  0
LINE
  8
0
 10
25.712
 11
26.008
 20
36.734
 21
36.508
  0
LINE
  8
0
 10
26.008
 11
26.234
 20
36.508
 21
36.213
  0
LINE
  8
0
 10
26.234
 11
26.376
 20
36.213
 21
35.869
  0
LINE
  8
0
 10
26.376
 11
26.425
 20
35.869
 21
35.5
  0
LINE
  8
0
 10
26.425
 11
26.376
 20
35.5
 21
35.131
  0
LINE
  8
0
 10
26.376
 11
26.234
 20
35.131
 21
34.788
  0
LINE
  8
0
 10
26.234
 11
26.008
 20
34.788
 21
34.492
  0
LINE
  8
0
 10
26.008
 11
25.712
 20
34.492
 21
34.266
  0
LINE
  8
0
 10
25.712
 11
25.369
 20
34.266
 21
34.124
  0
LINE
  8
0
 10
25.369
 11
25
 20
34.124
 21
34.075
  0
LINE
  8
0
 10
25
 11
24.631
 20
34.075
 21
34.124
  0
LINE
  8
0
 10
24.631
 11
24.287
 20
34.124
 21
34.266
  0
LINE
  8
0
 10
24.287
 11
23.992
 20
34.266
 21
34.492
  0
LINE
  8
0
 10
23.992
 11
23.766
 20
34.492
 21
34.788
  0
LINE
  8
0
 10
23.766
 11
23.624
 20
34.788
 21
35.131
  0
LINE
  8
0
 10
23.624
 11
23.575
 20
35.131
 21
35.5
  0
LINE
  8
0
 10
28.575
 11
28.613
 20
11.2
 21
11.529
  0
LINE
  8
0
 10
28.613
 11
28.727
 20
11.529
 21
11.84
  0
LINE
  8
0
 10
28.727
 11
28.908
 20
11.84
 21
12.116
  0
LINE
  8
0
 10
28.908
 11
29.149
 20
12.116
 21
12.343
  0
LINE
  8
0
 10
29.149
 11
29.436
 20
12.343
 21
12.508
  0
LINE
  8
0
 10
29.436
 11
29.753
 20
12.508
 21
12.603
  0
LINE
  8
0
 10
29.753
 11
30.083
 20
12.603
 21
12.623
  0
LINE
  8
0
 10
30.083
 11
30.409
 20
12.623
 21
12.565
  0
LINE
  8
0
 10
30.409
 11
30.712
 20
12.565
 21
12.434
  0
LINE
  8
0
 10
30.712
 11
30.978
 20
12.434
 21
12.237
  0
LINE
  8
0
 10
30.978
 11
31.191
 20
12.237
 21
11.983
  0
LINE
  8
0
 10
31.191
 11
31.339
 20
11.983
 21
11.687
  0
LINE
  8
0
 10
31.339
 11
31.415
 20
11.687
 21
11.365
  0
LINE
  8
0
 10
31.415
 11
31.415
 20
11.365
 21
11.035
  0
LINE
  8
0
 10
31.415
 11
31.339
 20
11.035
 21
10.713
  0
LINE
  8
0
 10
31.339
 11
31.191
 20
10.713
 21
10.417
  0
LINE
  8
0
 10
31.191
 11
30.978
 20
10.417
 21
10.163
  0
LINE
  8
0
 10
30.978
 11
30.712
 20
10.163
 21
9.966
  0
LINE
  8
0
 10
30.712
 11
30.409
 20
9.966
 21
9.835
  0
LINE
  8
0
 10
30.409
 11
30.083
 20
9.835
 21
9.777
  0
LINE
  8
0
 10
30.083
 11
29.753
 20
9.777
 21
9.797
  0
LINE
  8
0
 10
29.753
 11
29.436
 20
9.797
 21
9.892
  0
LINE
  8
0
 10
29.436
 11
29.149
 20
9.892
 21
10.057
  0
LINE
  8
0
 10
29.149
 11
28.908
 20
10.057
 21
10.284
  0
LINE
  8
0
 10
28.908
 11
28.727
 20
10.284
 21
10.56
  0
LINE
  8
0
 10
28.727
 11
28.613
 20
10.56
 21
10.871
  0
LINE
  8
0
 10
28.613
 11
28.575
 20
10.871
 21
11.2
  0
LINE
  8
0
 10
32.681
 11
32.681
 20
-40.135
 21
-39.865
  0
LINE
  8
0
 10
32.681
 11
32.733
 20
-39.865
 21
-39.599
  0
LINE
  8
0
 10
32.733
 11
32.833
 20
-39.599
 21
-39.347
  0
LINE
  8
0
 10
32.833
 11
32.98
 20
-39.347
 21
-39.119
  0
LINE
  8
0
 10
32.98
 11
33.167
 20
-39.119
 21
-38.923
  0
LINE
  8
0
 10
33.167
 11
33.387
 20
-38.923
 21
-38.766
  0
LINE
  8
0
 10
33.387
 11
33.634
 20
-38.766
 21
-38.653
  0
LINE
  8
0
 10
33.634
 11
33.897
 20
-38.653
 21
-38.59
  0
LINE
  8
0
 10
33.897
 11
34.168
 20
-38.59
 21
-38.577
  0
LINE
  8
0
 10
34.168
 11
34.436
 20
-38.577
 21
-38.615
  0
LINE
  8
0
 10
34.436
 11
34.692
 20
-38.615
 21
-38.704
  0
LINE
  8
0
 10
34.692
 11
34.927
 20
-38.704
 21
-38.839
  0
LINE
  8
0
 10
34.927
 11
35.131
 20
-38.839
 21
-39.017
  0
LINE
  8
0
 10
35.131
 11
35.299
 20
-39.017
 21
-39.23
  0
LINE
  8
0
 10
35.299
 11
35.423
 20
-39.23
 21
-39.47
  0
LINE
  8
0
 10
35.423
 11
35.499
 20
-39.47
 21
-39.73
  0
LINE
  8
0
 10
35.499
 11
35.525
 20
-39.73
 21
-40
  0
LINE
  8
0
 10
35.525
 11
35.499
 20
-40
 21
-40.27
  0
LINE
  8
0
 10
35.499
 11
35.423
 20
-40.27
 21
-40.53
  0
LINE
  8
0
 10
35.423
 11
35.299
 20
-40.53
 21
-40.77
  0
LINE
  8
0
 10
35.299
 11
35.131
 20
-40.77
 21
-40.983
  0
LINE
  8
0
 10
35.131
 11
34.927
 20
-40.983
 21
-41.161
  0
LINE
  8
0
 10
34.927
 11
34.692
 20
-41.161
 21
-41.296
  0
LINE
  8
0
 10
34.692
 11
34.436
 20
-41.296
 21
-41.385
  0
LINE
  8
0
 10
34.436
 11
34.168
 20
-41.385
 21
-41.423
  0
LINE
  8
0
 10
34.168
 11
33.897
 20
-41.423
 21
-41.41
  0
LINE
  8
0
 10
33.897
 11
33.634
 20
-41.41
 21
-41.347
  0
LINE
  8
0
 10
33.634
 11
33.387
 20
-41.347
 21
-41.234
  0
LINE
  8
0
 10
33.387
 11
33.167
 20
-41.234
 21
-41.077
  0
LINE
  8
0
 10
33.167
 11
32.98
 20
-41.077
 21
-40.881
  0
LINE
  8
0
 10
32.98
 11
32.833
 20
-40.881
 21
-40.653
  0
LINE
  8
0
 10
32.833
 11
32.733
 20
-40.653
 21
-40.401
  0
LINE
  8
0
 10
32.733
 11
32.681
 20
-40.401
 21
-40.135
  0
LINE
  8
0
 10
34.555
 11
34.593
 20
7.013
 21
7.342
  0
LINE
  8
0
 10
34.593
 11
34.706
 20
7.342
 21
7.652
  0
LINE
  8
0
 10
34.706
 11
34.888
 20
7.652
 21
7.929
  0
LINE
  8
0
 10
34.888
 11
35.129
 20
7.929
 21
8.156
  0
LINE
  8
0
 10
35.129
 11
35.415
 20
8.156
 21
8.321
  0
LINE
  8
0
 10
35.415
 11
35.732
 20
8.321
 21
8.416
  0
LINE
  8
0
 10
35.732
 11
36.063
 20
8.416
 21
8.435
  0
LINE
  8
0
 10
36.063
 11
36.389
 20
8.435
 21
8.378
  0
LINE
  8
0
 10
36.389
 11
36.692
 20
8.378
 21
8.247
  0
LINE
  8
0
 10
36.692
 11
36.958
 20
8.247
 21
8.049
  0
LINE
  8
0
 10
36.958
 11
37.17
 20
8.049
 21
7.796
  0
LINE
  8
0
 10
37.17
 11
37.319
 20
7.796
 21
7.5
  0
LINE
  8
0
 10
37.319
 11
37.395
 20
7.5
 21
7.178
  0
LINE
  8
0
 10
37.395
 11
37.395
 20
7.178
 21
6.847
  0
LINE
  8
0
 10
37.395
 11
37.319
 20
6.847
 21
6.526
  0
LINE
  8
0
 10
37.319
 11
37.17
 20
6.526
 21
6.23
  0
LINE
  8
0
 10
37.17
 11
36.958
 20
6.23
 21
5.976
  0
LINE
  8
0
 10
36.958
 11
36.692
 20
5.976
 21
5.779
  0
LINE
  8
0
 10
36.692
 11
36.389
 20
5.779
 21
5.648
  0
LINE
  8
0
 10
36.389
 11
36.063
 20
5.648
 21
5.59
  0
LINE
  8
0
 10
36.063
 11
35.732
 20
5.59
 21
5.61
  0
LINE
  8
0
 10
35.732
 11
35.415
 20
5.61
 21
5.704
  0
LINE
  8
0
 10
35.415
 11
35.129
 20
5.704
 21
5.87
  0
LINE
  8
0
 10
35.129
 11
34.888
 20
5.87
 21
6.097
  0
LINE
  8
0
 10
34.888
 11
34.706
 20
6.097
 21
6.373
  0
LINE
  8
0
 10
34.706
 11
34.593
 20
6.373
 21
6.684
  0
LINE
  8
0
 10
34.593
 11
34.555
 20
6.684
 21
7.013
  0
ENDSEC
  0
SECTION
  2
OBJECTS
  0
DICTIONARY
  0
ENDSEC
  0
EOF
