loading
Michael Jackson was a bit weird, but aren't we all? I like a few of his songs. I also made an instructable on how to play "Smooth Criminal" (another one of his songs.) Beat it is pretty easy. You just have to play the intro twice, and then the other part of the riff over and over. It is pretty simple. If you need to learn how to read tab (tableture) look at my other instructable, "Easy Eminem on Guitar."

------------------------------------------------------------------
-----------------------------------------------------------------
-----------0----------------------------0-----------------------                   play this twice......
---------------2-4-2-0-0-----------------2-4-0--------------
--------2----------------------------2--------------------------
---0-3--------------------------0-3-----------------------------


-----------------------------------------------------------------------------------
----------------------------------------------------------------------------------    then play this ,
-----------------------------------------------------------------------------------   over and over
----6-6-6---4-4-4---6-6-6---4-4-4---2-2-2---4-4-4---6-6-6---4-4-4--
----6-6-6---4-4-4---6-6-6---4-4-4---2-2-2---4-4-4---6-6-6---4-4-4---
-----------------------------------------------------------------------------------
This isn't an instructable; it's tab' and some words about it.<br> <br> L
it is, but it shows you how to perform a task. not all instructables are on how to physically make something.
There isn't anything being shown: no fingers on the frets etc. What time-signature do you use?<br> <br> L
it desnt take a genius to figure out where his fingers feel most comfortable playing the specific frets
-so what is anyone to learn from this that they couldn't find already on the internet?<br> Do you even know what key it should be played in?<br> <br> L
it si for beginners. plus, this is the internet, is it not?
Yes man, but you are supposed to<em> teach</em> people something.<br> Moving bits of the internet about and rearranging things on a new page doesn't show someone <em>how to perform</em> music.<br> <br> L
if I showed somebody this page, they would understand how to play the main riffs in &quot;beat it.&quot; they could then (with some practice) perform it
Yes but the purpose of an Instructable<em> is to show someone how to do it<em>.</em></em><br> I can pick up tabs off the internet easily.<br> <br> L<br> <br> <br>
this is showing them how to do it, in the best sounding way (my opinion) the other tabs online dont sound as goood as this one

About This Instructable

8,812views

4favorites

License:

More by freeza36:Easiest Finger Puppets 3D Printed GoPro Mount Slingshot Fishing Rod 
Add instructable to: