Instructables

"Ghost riders In the Sky" Main Guitar Solo

video "Ghost riders In the Sky" Main Guitar Solo
This song is by Johnny Cash. It sounds pretty good I think. I uploaded two videos because i could not decide which sounded better. Leave a comment with your opinion.

e------------------------------------------
b---------------------------------------------
g----------------------------------------------
d---------------------------------------------
a---0-00--2--3-33--0-----------------------
E-3----------------------3-33--0-3-3-----


e--------------------------------------------
b-------------------------------------------
g-------------------------------------------
d---------------------0--2-22--0--2-2----
a---0-00--2--3-33------------------------
E---------------------------------------------


e--------------------------------------------------------------------
b-------------------------------------------------------------------
g---2-22-0--------------------------------------------------------
d-----------2-22-0-------------------------------------------------
a----------------------3--33-0----------------3-3--0-0-----------
E-----------------------------------3--1-1-1--------------3--0----


Higgs Boson2 years ago
Second one by a lot.